0
SECTION
2
HEADER
9
$INSUNITS
70
4
9
$ACADVER
1
AC1014
9
$HANDSEED
5
FFFF
0
ENDSEC
0
SECTION
2
TABLES
0
TABLE
2
VPORT
5
8
100
AcDbSymbolTable
0
ENDTAB
0
TABLE
2
LTYPE
5
5
100
AcDbSymbolTable
0
LTYPE
5
14
100
AcDbSymbolTableRecord
100
AcDbLinetypeTableRecord
2
BYBLOCK
70
0
0
LTYPE
5
15
100
AcDbSymbolTableRecord
100
AcDbLinetypeTableRecord
2
BYLAYER
70
0
0
ENDTAB
0
TABLE
2
LAYER
5
2
100
AcDbSymbolTable
70
2
0
LAYER
5
50
100
AcDbSymbolTableRecord
100
AcDbLayerTableRecord
2
0
70
0
6
CONTINUOUS
0
ENDTAB
0
TABLE
2
STYLE
5
3
100
AcDbSymbolTable
70
1
0
STYLE
5
11
100
AcDbSymbolTableRecord
100
AcDbTextStyleTableRecord
2
STANDARD
70
0
0
ENDTAB
0
TABLE
2
VIEW
5
6
100
AcDbSymbolTable
70
0
0
ENDTAB
0
TABLE
2
UCS
5
7
100
AcDbSymbolTable
70
0
0
ENDTAB
0
TABLE
2
APPID
5
9
100
AcDbSymbolTable
70
2
0
APPID
5
12
100
AcDbSymbolTableRecord
100
AcDbRegAppTableRecord
2
ACAD
70
0
0
ENDTAB
0
TABLE
2
DIMSTYLE
5
A
100
AcDbSymbolTable
70
1
0
ENDTAB
0
TABLE
2
BLOCK_RECORD
5
1
100
AcDbSymbolTable
70
1
0
BLOCK_RECORD
5
1F
100
AcDbSymbolTableRecord
100
AcDbBlockTableRecord
2
*MODEL_SPACE
0
BLOCK_RECORD
5
1B
100
AcDbSymbolTableRecord
100
AcDbBlockTableRecord
2
*PAPER_SPACE
0
ENDTAB
0
ENDSEC
0
SECTION
2
BLOCKS
0
BLOCK
5
20
100
AcDbEntity
100
AcDbBlockBegin
2
*MODEL_SPACE
0
ENDBLK
5
21
100
AcDbEntity
100
AcDbBlockEnd
0
BLOCK
5
1C
100
AcDbEntity
100
AcDbBlockBegin
2
*PAPER_SPACE
0
ENDBLK
5
1D
100
AcDbEntity
100
AcDbBlockEnd
0
ENDSEC
0
SECTION
2
ENTITIES
0
CIRCLE
5
100
100
AcDbEntity
8
0
100
AcDbCircle
10
109.33569937714452
20
6.4145285091758808
30
0
40
1.2
210
0
220
0
230
1
0
CIRCLE
5
101
100
AcDbEntity
8
0
100
AcDbCircle
10
56.835699377144593
20
24.414528509175923
30
0
40
2.1500000000000341
210
0
220
0
230
1
0
CIRCLE
5
102
100
AcDbEntity
8
0
100
AcDbCircle
10
289.33569937714452
20
6.4145285091758808
30
0
40
1.2
210
0
220
0
230
1
0
CIRCLE
5
103
100
AcDbEntity
8
0
100
AcDbCircle
10
23.495078943578562
20
114.57390807561001
30
0
40
2.1500000000000341
210
0
220
0
230
1
0
CIRCLE
5
104
100
AcDbEntity
8
0
100
AcDbCircle
10
111.17631981071045
20
202.25514894274195
30
0
40
2.1499999999999986
210
0
220
0
230
1
0
CIRCLE
5
105
100
AcDbEntity
8
0
100
AcDbCircle
10
56.835699377144593
20
24.414528509175923
30
0
40
2.1500000000000341
210
0
220
0
230
1
0
CIRCLE
5
106
100
AcDbEntity
8
0
100
AcDbCircle
10
111.17631981071045
20
114.57390807561001
30
0
40
2.1499999999999986
210
0
220
0
230
1
0
CIRCLE
5
107
100
AcDbEntity
8
0
100
AcDbCircle
10
385.33569937714452
20
219.41452850917599
30
0
40
2.1499999999999999
210
0
220
0
230
1
0
LWPOLYLINE
5
108
100
AcDbEntity
8
0
100
AcDbPolyline
90
4
70
1
43
0.0
10
4.3356993771445218
20
3.4145285091759803
10
394.33569937714452
20
3.4145285091759803
10
394.33569937714452
20
228.41452850917597
10
4.3356993771445218
20
228.41452850917597
0
CIRCLE
5
109
100
AcDbEntity
8
0
100
AcDbCircle
10
109.33569937714452
20
225.41452850917597
30
0
40
1.2
210
0
220
0
230
1
0
CIRCLE
5
110
100
AcDbEntity
8
0
100
AcDbCircle
10
25.335699377144536
20
32.414528509175966
30
0
40
2.1500000000000341
210
0
220
0
230
1
0
CIRCLE
5
111
100
AcDbEntity
8
0
100
AcDbCircle
10
13.335699377144508
20
219.41452850917599
30
0
40
2.1499999999999999
210
0
220
0
230
1
0
CIRCLE
5
112
100
AcDbEntity
8
0
100
AcDbCircle
10
385.33569937714452
20
12.414528509175966
30
0
40
2.1499999999999999
210
0
220
0
230
1
0
CIRCLE
5
113
100
AcDbEntity
8
0
100
AcDbCircle
10
109.33569937714452
20
6.4145285091758808
30
0
40
1.2
210
0
220
0
230
1
0
CIRCLE
5
114
100
AcDbEntity
8
0
100
AcDbCircle
10
199.33569937714452
20
115.91452850917598
30
0
40
2.1499999999999986
210
0
220
0
230
1
0
CIRCLE
5
115
100
AcDbEntity
8
0
100
AcDbCircle
10
13.335699377144508
20
12.414528509175966
30
0
40
2.1499999999999999
210
0
220
0
230
1
0
CIRCLE
5
116
100
AcDbEntity
8
0
100
AcDbCircle
10
111.17631981071045
20
114.57390807561001
30
0
40
2.1499999999999986
210
0
220
0
230
1
0
CIRCLE
5
117
100
AcDbEntity
8
0
100
AcDbCircle
10
23.495078943578562
20
202.25514894274195
30
0
40
2.1500000000000341
210
0
220
0
230
1
0
LINE
5
118
100
AcDbEntity
8
0
100
AcDbLine
10
4.3356993771445218
20
3.4145285091759803
30
0
11
4.3356993771445218
21
228.41452850917597
31
0
0
CIRCLE
5
119
100
AcDbEntity
8
0
100
AcDbCircle
10
109.33569937714452
20
225.41452850917597
30
0
40
1.2
210
0
220
0
230
1
0
CIRCLE
5
120
100
AcDbEntity
8
0
100
AcDbCircle
10
13.335699377144508
20
219.41452850917599
30
0
40
2.1499999999999999
210
0
220
0
230
1
0
CIRCLE
5
121
100
AcDbEntity
8
0
100
AcDbCircle
10
23.495078943578562
20
114.57390807561001
30
0
40
2.1500000000000341
210
0
220
0
230
1
0
CIRCLE
5
122
100
AcDbEntity
8
0
100
AcDbCircle
10
111.17631981071045
20
202.25514894274195
30
0
40
2.1499999999999986
210
0
220
0
230
1
0
CIRCLE
5
123
100
AcDbEntity
8
0
100
AcDbCircle
10
385.33569937714452
20
12.414528509175966
30
0
40
2.1499999999999999
210
0
220
0
230
1
0
LINE
5
124
100
AcDbEntity
8
0
100
AcDbLine
10
394.33569937714452
20
3.4145285091759803
30
0
11
4.3356993771445218
21
3.4145285091759803
31
0
0
CIRCLE
5
125
100
AcDbEntity
8
0
100
AcDbCircle
10
13.335699377144508
20
12.414528509175966
30
0
40
2.1499999999999999
210
0
220
0
230
1
0
LINE
5
126
100
AcDbEntity
8
0
100
AcDbLine
10
394.33569937714452
20
228.41452850917597
30
0
11
394.33569937714452
21
3.4145285091759803
31
0
0
CIRCLE
5
127
100
AcDbEntity
8
0
100
AcDbCircle
10
25.335699377144536
20
60.414528509175902
30
0
40
2.1500000000000341
210
0
220
0
230
1
0
CIRCLE
5
128
100
AcDbEntity
8
0
100
AcDbCircle
10
385.33569937714452
20
219.41452850917599
30
0
40
2.1499999999999999
210
0
220
0
230
1
0
CIRCLE
5
129
100
AcDbEntity
8
0
100
AcDbCircle
10
289.33569937714452
20
6.4145285091758808
30
0
40
1.2
210
0
220
0
230
1
0
CIRCLE
5
130
100
AcDbEntity
8
0
100
AcDbCircle
10
67.335699377144422
20
158.41452850917597
30
0
40
7.9999999999999716
210
0
220
0
230
1
0
LINE
5
131
100
AcDbEntity
8
0
100
AcDbLine
10
4.3356993771445218
20
228.41452850917597
30
0
11
394.33569937714452
21
228.41452850917597
31
0
0
CIRCLE
5
132
100
AcDbEntity
8
0
100
AcDbCircle
10
23.495078943578562
20
202.25514894274195
30
0
40
2.1500000000000341
210
0
220
0
230
1
0
CIRCLE
5
133
100
AcDbEntity
8
0
100
AcDbCircle
10
25.335699377144536
20
32.414528509175966
30
0
40
2.1500000000000341
210
0
220
0
230
1
0
CIRCLE
5
134
100
AcDbEntity
8
0
100
AcDbCircle
10
289.33569937714452
20
225.41452850917597
30
0
40
1.2
210
0
220
0
230
1
0
CIRCLE
5
135
100
AcDbEntity
8
0
100
AcDbCircle
10
289.33569937714452
20
225.41452850917597
30
0
40
1.2
210
0
220
0
230
1
0
CIRCLE
5
136
100
AcDbEntity
8
0
100
AcDbCircle
10
63.585699377144351
20
92.16452850917598
30
0
40
2.1500000000000341
210
0
220
0
230
1
0
CIRCLE
5
137
100
AcDbEntity
8
0
100
AcDbCircle
10
67.335699377144422
20
158.41452850917597
30
0
40
7.9999999999999716
210
0
220
0
230
1
0
CIRCLE
5
138
100
AcDbEntity
8
0
100
AcDbCircle
10
99.585699377144437
20
92.16452850917598
30
0
40
2.1499999999999986
210
0
220
0
230
1
0
CIRCLE
5
139
100
AcDbEntity
8
0
100
AcDbCircle
10
99.585699377144437
20
92.16452850917598
30
0
40
2.1499999999999986
210
0
220
0
230
1
0
CIRCLE
5
140
100
AcDbEntity
8
0
100
AcDbCircle
10
25.335699377144536
20
60.414528509175902
30
0
40
2.1500000000000341
210
0
220
0
230
1
0
CIRCLE
5
141
100
AcDbEntity
8
0
100
AcDbCircle
10
63.585699377144351
20
92.16452850917598
30
0
40
2.1500000000000341
210
0
220
0
230
1
0
CIRCLE
5
142
100
AcDbEntity
8
0
100
AcDbCircle
10
199.33569937714452
20
115.91452850917598
30
0
40
2.1499999999999986
210
0
220
0
230
1
0
CIRCLE
5
143
100
AcDbEntity
8
0
100
AcDbCircle
10
623.91008614412738
20
6.5751592322916963
30
0
40
1.2
210
0
220
0
230
1
0
CIRCLE
5
144
100
AcDbEntity
8
0
100
AcDbCircle
10
623.91008614412738
20
6.5751592322916963
30
0
40
1.2
210
0
220
0
230
1
0
CIRCLE
5
145
100
AcDbEntity
8
0
100
AcDbCircle
10
623.91008614412738
20
225.57515923229172
30
0
40
1.2
210
0
220
0
230
1
0
LWPOLYLINE
5
146
100
AcDbEntity
8
0
100
AcDbPolyline
90
4
70
1
43
0.0
10
396.91008614412732
20
228.57515923229172
10
396.91008614412732
20
3.5751592322917247
10
626.91008614412726
20
3.5751592322917247
10
626.91008614412726
20
228.57515923229172
0
CIRCLE
5
147
100
AcDbEntity
8
0
100
AcDbCircle
10
399.91008614412726
20
6.5751592322916963
30
0
40
1.2
210
0
220
0
230
1
0
LINE
5
148
100
AcDbEntity
8
0
100
AcDbLine
10
626.91008614412726
20
228.57515923229172
30
0
11
396.91008614412732
21
228.57515923229172
31
0
0
LINE
5
149
100
AcDbEntity
8
0
100
AcDbLine
10
396.91008614412732
20
228.57515923229172
30
0
11
396.91008614412732
21
3.5751592322917247
31
0
0
LINE
5
150
100
AcDbEntity
8
0
100
AcDbLine
10
396.91008614412732
20
3.5751592322917247
30
0
11
626.91008614412726
21
3.5751592322917247
31
0
0
CIRCLE
5
151
100
AcDbEntity
8
0
100
AcDbCircle
10
623.91008614412738
20
225.57515923229172
30
0
40
1.2
210
0
220
0
230
1
0
CIRCLE
5
152
100
AcDbEntity
8
0
100
AcDbCircle
10
399.91008614412726
20
6.5751592322916963
30
0
40
1.2
210
0
220
0
230
1
0
CIRCLE
5
153
100
AcDbEntity
8
0
100
AcDbCircle
10
399.91008614412726
20
225.57515923229172
30
0
40
1.2
210
0
220
0
230
1
0
LINE
5
154
100
AcDbEntity
8
0
100
AcDbLine
10
626.91008614412726
20
228.57515923229172
30
0
11
626.91008614412726
21
3.5751592322917247
31
0
0
CIRCLE
5
155
100
AcDbEntity
8
0
100
AcDbCircle
10
399.91008614412726
20
225.57515923229172
30
0
40
1.2
210
0
220
0
230
1
0
LWPOLYLINE
5
156
100
AcDbEntity
8
0
100
AcDbPolyline
90
4
70
1
43
0.0
10
323.5571109879441
20
257.05254445874658
10
342.75711098794409
20
257.05254445874658
10
342.75711098794409
20
243.85254445874654
10
323.5571109879441
20
243.85254445874659
0
LWPOLYLINE
5
157
100
AcDbEntity
8
0
100
AcDbPolyline
90
4
70
1
43
0.0
10
367.80711098794416
20
244.80254445874652
10
358.50711098794415
20
244.80254445874652
10
358.50711098794415
20
256.10254445874654
10
367.80711098794416
20
256.10254445874654
0
CIRCLE
5
158
100
AcDbEntity
8
0
100
AcDbCircle
10
155.55444671598448
20
264.95254445874656
30
0
40
1.2
210
0
220
0
230
1
0
LWPOLYLINE
5
159
100
AcDbEntity
8
0
100
AcDbPolyline
90
6
70
1
43
0.0
10
3.1571109879440939
20
232.95254445874656
10
393.15711098794407
20
232.95254445874656
10
393.15711098794407
20
267.95254445874656
10
157.28044581796934
20
267.95254445874667
10
132.28044581796956
20
310.95254445874662
10
3.1571109879440939
20
310.95254445874662
0
LINE
5
160
100
AcDbEntity
8
0
100
AcDbLine
10
323.5571109879441
20
257.05254445874658
30
0
11
342.75711098794409
21
257.05254445874658
31
0
0
CIRCLE
5
161
100
AcDbEntity
8
0
100
AcDbCircle
10
130.55444671598477
20
307.95254445874656
30
0
40
1.2
210
0
220
0
230
1
0
CIRCLE
5
162
100
AcDbEntity
8
0
100
AcDbCircle
10
6.1571109879440655
20
307.9525444587465
30
0
40
1.2
210
0
220
0
230
1
0
LINE
5
163
100
AcDbEntity
8
0
100
AcDbLine
10
367.80711098794416
20
244.80254445874652
30
0
11
358.50711098794415
21
244.80254445874652
31
0
0
CIRCLE
5
164
100
AcDbEntity
8
0
100
AcDbCircle
10
390.15711098794412
20
264.95254445874656
30
0
40
1.2
210
0
220
0
230
1
0
LINE
5
165
100
AcDbEntity
8
0
100
AcDbLine
10
367.80711098794416
20
256.10254445874654
30
0
11
367.80711098794416
21
244.80254445874652
31
0
0
CIRCLE
5
166
100
AcDbEntity
8
0
100
AcDbCircle
10
390.15711098794412
20
235.9525444587465
30
0
40
1.2
210
0
220
0
230
1
0
CIRCLE
5
167
100
AcDbEntity
8
0
100
AcDbCircle
10
6.1571109879440655
20
235.95254445874656
30
0
40
1.2
210
0
220
0
230
1
0
CIRCLE
5
168
100
AcDbEntity
8
0
100
AcDbCircle
10
155.55444671598448
20
264.95254445874656
30
0
40
1.2
210
0
220
0
230
1
0
LINE
5
169
100
AcDbEntity
8
0
100
AcDbLine
10
342.75711098794409
20
243.85254445874654
30
0
11
323.5571109879441
21
243.85254445874659
31
0
0
LINE
5
170
100
AcDbEntity
8
0
100
AcDbLine
10
3.1571109879440939
20
232.95254445874656
30
0
11
393.15711098794407
21
232.95254445874656
31
0
0
LINE
5
171
100
AcDbEntity
8
0
100
AcDbLine
10
358.50711098794415
20
244.80254445874652
30
0
11
358.50711098794415
21
256.10254445874654
31
0
0
LINE
5
172
100
AcDbEntity
8
0
100
AcDbLine
10
358.50711098794415
20
256.10254445874654
30
0
11
367.80711098794416
21
256.10254445874654
31
0
0
CIRCLE
5
173
100
AcDbEntity
8
0
100
AcDbCircle
10
155.55444671598448
20
235.9525444587465
30
0
40
1.2
210
0
220
0
230
1
0
LINE
5
174
100
AcDbEntity
8
0
100
AcDbLine
10
323.5571109879441
20
243.85254445874659
30
0
11
323.5571109879441
21
257.05254445874658
31
0
0
LINE
5
175
100
AcDbEntity
8
0
100
AcDbLine
10
3.1571109879440939
20
310.95254445874662
30
0
11
3.1571109879440939
21
232.95254445874656
31
0
0
CIRCLE
5
176
100
AcDbEntity
8
0
100
AcDbCircle
10
130.55444671598477
20
307.95254445874656
30
0
40
1.2
210
0
220
0
230
1
0
LINE
5
177
100
AcDbEntity
8
0
100
AcDbLine
10
342.75711098794409
20
257.05254445874658
30
0
11
342.75711098794409
21
243.85254445874654
31
0
0
CIRCLE
5
178
100
AcDbEntity
8
0
100
AcDbCircle
10
390.15711098794412
20
235.9525444587465
30
0
40
1.2
210
0
220
0
230
1
0
LINE
5
179
100
AcDbEntity
8
0
100
AcDbLine
10
393.15711098794407
20
232.95254445874656
30
0
11
393.15711098794407
21
267.95254445874656
31
0
0
LINE
5
180
100
AcDbEntity
8
0
100
AcDbLine
10
393.15711098794407
20
267.95254445874656
30
0
11
157.28044581796934
21
267.95254445874667
31
0
0
CIRCLE
5
181
100
AcDbEntity
8
0
100
AcDbCircle
10
6.1571109879440655
20
235.95254445874656
30
0
40
1.2
210
0
220
0
230
1
0
CIRCLE
5
182
100
AcDbEntity
8
0
100
AcDbCircle
10
6.1571109879440655
20
307.9525444587465
30
0
40
1.2
210
0
220
0
230
1
0
CIRCLE
5
183
100
AcDbEntity
8
0
100
AcDbCircle
10
390.15711098794412
20
264.95254445874656
30
0
40
1.2
210
0
220
0
230
1
0
LINE
5
184
100
AcDbEntity
8
0
100
AcDbLine
10
157.28044581796934
20
267.95254445874667
30
0
11
132.28044581796956
21
310.95254445874662
31
0
0
LINE
5
185
100
AcDbEntity
8
0
100
AcDbLine
10
132.28044581796956
20
310.95254445874662
30
0
11
3.1571109879440939
21
310.95254445874662
31
0
0
CIRCLE
5
186
100
AcDbEntity
8
0
100
AcDbCircle
10
155.55444671598448
20
235.9525444587465
30
0
40
1.2
210
0
220
0
230
1
0
LWPOLYLINE
5
187
100
AcDbEntity
8
0
100
AcDbPolyline
90
6
70
1
43
0.0
10
644.00516249767475
20
159.24248274403431
42
0.99999999999999989
10
744.40516249767472
20
159.24248274403439
10
759.20516249767479
20
159.24248274403439
10
759.20516249767479
20
4.2424827440343904
10
631.20516249767479
20
4.2424827440343904
10
631.20516249767479
20
159.24248274403439
0
ARC
5
188
100
AcDbEntity
8
0
100
AcDbCircle
10
694.20516249767479
20
159.24248274403439
30
0
40
50.200000000000102
210
0
220
0
230
1
100
AcDbArc
50
-180
51
0
0
CIRCLE
5
189
100
AcDbEntity
8
0
100
AcDbCircle
10
634.20516249767479
20
7.242482744034362
30
0
40
1.2
210
0
220
0
230
1
0
CIRCLE
5
190
100
AcDbEntity
8
0
100
AcDbCircle
10
634.20516249767479
20
7.242482744034362
30
0
40
1.2
210
0
220
0
230
1
0
LINE
5
191
100
AcDbEntity
8
0
100
AcDbLine
10
759.20516249767479
20
159.24248274403439
30
0
11
744.40516249767472
21
159.24248274403439
31
0
0
LINE
5
192
100
AcDbEntity
8
0
100
AcDbLine
10
759.20516249767479
20
4.2424827440343904
30
0
11
759.20516249767479
21
159.24248274403439
31
0
0
CIRCLE
5
193
100
AcDbEntity
8
0
100
AcDbCircle
10
756.20516249767479
20
7.242482744034362
30
0
40
1.2
210
0
220
0
230
1
0
CIRCLE
5
194
100
AcDbEntity
8
0
100
AcDbCircle
10
756.20516249767479
20
156.24248274403439
30
0
40
1.2
210
0
220
0
230
1
0
CIRCLE
5
195
100
AcDbEntity
8
0
100
AcDbCircle
10
634.20516249767479
20
156.24248274403439
30
0
40
1.2
210
0
220
0
230
1
0
LINE
5
196
100
AcDbEntity
8
0
100
AcDbLine
10
759.20516249767479
20
4.2424827440343904
30
0
11
631.20516249767479
21
4.2424827440343904
31
0
0
CIRCLE
5
197
100
AcDbEntity
8
0
100
AcDbCircle
10
756.20516249767479
20
156.24248274403439
30
0
40
1.2
210
0
220
0
230
1
0
CIRCLE
5
198
100
AcDbEntity
8
0
100
AcDbCircle
10
634.20516249767479
20
156.24248274403439
30
0
40
1.2
210
0
220
0
230
1
0
CIRCLE
5
199
100
AcDbEntity
8
0
100
AcDbCircle
10
756.20516249767479
20
7.242482744034362
30
0
40
1.2
210
0
220
0
230
1
0
LINE
5
200
100
AcDbEntity
8
0
100
AcDbLine
10
631.20516249767479
20
159.24248274403439
30
0
11
631.20516249767479
21
4.2424827440343904
31
0
0
LINE
5
201
100
AcDbEntity
8
0
100
AcDbLine
10
644.00516249767475
20
159.24248274403431
30
0
11
631.20516249767479
21
159.24248274403439
31
0
0
LWPOLYLINE
5
202
100
AcDbEntity
8
0
100
AcDbPolyline
90
6
70
1
43
0.0
10
644.11252694387997
20
160.465088062636
42
-0.99999999999999989
10
744.51252694387995
20
160.46508806263591
10
759.3125269438799
20
160.46508806263589
10
759.31252694388013
20
230.46508806263591
10
631.3125269438799
20
230.46508806263591
10
631.3125269438799
20
160.46508806263591
0
CIRCLE
5
203
100
AcDbEntity
8
0
100
AcDbCircle
10
634.3125269438799
20
227.46508806263591
30
0
40
1.2
210
0
220
0
230
1
0
CIRCLE
5
204
100
AcDbEntity
8
0
100
AcDbCircle
10
634.3125269438799
20
163.46508806263591
30
0
40
1.2
210
0
220
0
230
1
0
LINE
5
205
100
AcDbEntity
8
0
100
AcDbLine
10
644.11252694387997
20
160.465088062636
30
0
11
631.3125269438799
21
160.46508806263591
31
0
0
LINE
5
206
100
AcDbEntity
8
0
100
AcDbLine
10
759.3125269438799
20
160.46508806263589
30
0
11
744.51252694387995
21
160.46508806263591
31
0
0
CIRCLE
5
207
100
AcDbEntity
8
0
100
AcDbCircle
10
756.3125269438799
20
163.46508806263591
30
0
40
1.2
210
0
220
0
230
1
0
CIRCLE
5
208
100
AcDbEntity
8
0
100
AcDbCircle
10
756.3125269438799
20
227.46508806263594
30
0
40
1.2
210
0
220
0
230
1
0
LINE
5
209
100
AcDbEntity
8
0
100
AcDbLine
10
631.3125269438799
20
230.46508806263591
30
0
11
759.31252694388013
21
230.46508806263591
31
0
0
CIRCLE
5
210
100
AcDbEntity
8
0
100
AcDbCircle
10
756.3125269438799
20
227.46508806263594
30
0
40
1.2
210
0
220
0
230
1
0
CIRCLE
5
211
100
AcDbEntity
8
0
100
AcDbCircle
10
634.3125269438799
20
227.46508806263591
30
0
40
1.2
210
0
220
0
230
1
0
CIRCLE
5
212
100
AcDbEntity
8
0
100
AcDbCircle
10
634.3125269438799
20
163.46508806263591
30
0
40
1.2
210
0
220
0
230
1
0
CIRCLE
5
213
100
AcDbEntity
8
0
100
AcDbCircle
10
756.3125269438799
20
163.46508806263591
30
0
40
1.2
210
0
220
0
230
1
0
LINE
5
214
100
AcDbEntity
8
0
100
AcDbLine
10
759.31252694388013
20
230.46508806263591
30
0
11
759.3125269438799
21
160.46508806263589
31
0
0
ARC
5
215
100
AcDbEntity
8
0
100
AcDbCircle
10
-694.3125269438799
20
160.46508806263591
30
0
40
50.19999999999996
210
0
220
0
230
-1
100
AcDbArc
50
0
51
180
0
LINE
5
216
100
AcDbEntity
8
0
100
AcDbLine
10
631.3125269438799
20
230.46508806263591
30
0
11
631.3125269438799
21
160.46508806263591
31
0
0
CIRCLE
5
217
100
AcDbEntity
8
0
100
AcDbCircle
10
385.74703393197609
20
274.07291114513862
30
0
40
1.2000000000000002
210
0
220
0
230
1
0
LWPOLYLINE
5
218
100
AcDbEntity
8
0
100
AcDbPolyline
90
4
70
1
43
0.0
10
388.74703393197603
20
271.07291114513856
10
163.74703393197595
20
271.07291114513851
10
163.74703393197595
20
313.93556643694723
10
388.74703393197603
20
313.93556643694717
0
CIRCLE
5
219
100
AcDbEntity
8
0
100
AcDbCircle
10
385.74703393197609
20
310.93556643694723
30
-3.5527136788005003e-14
40
1.2000000000000002
210
0
220
0
230
1
0
LINE
5
220
100
AcDbEntity
8
0
100
AcDbLine
10
388.74703393197603
20
271.07291114513856
30
0
11
388.74703393197603
21
313.93556643694717
31
0
0
CIRCLE
5
221
100
AcDbEntity
8
0
100
AcDbCircle
10
385.74703393197609
20
274.07291114513862
30
0
40
1.2000000000000002
210
0
220
0
230
1
0
CIRCLE
5
222
100
AcDbEntity
8
0
100
AcDbCircle
10
385.74703393197609
20
310.93556643694723
30
-3.5527136788005003e-14
40
1.2000000000000002
210
0
220
0
230
1
0
LINE
5
223
100
AcDbEntity
8
0
100
AcDbLine
10
388.74703393197603
20
313.93556643694717
30
0
11
163.74703393197595
21
313.93556643694723
31
0
0
CIRCLE
5
224
100
AcDbEntity
8
0
100
AcDbCircle
10
166.74703393197598
20
310.93556643694723
30
-3.5527136788005003e-14
40
1.2000000000000002
210
0
220
0
230
1
0
CIRCLE
5
225
100
AcDbEntity
8
0
100
AcDbCircle
10
166.74703393197598
20
310.93556643694723
30
-3.5527136788005003e-14
40
1.2000000000000002
210
0
220
0
230
1
0
LINE
5
226
100
AcDbEntity
8
0
100
AcDbLine
10
163.74703393197595
20
313.93556643694723
30
0
11
163.74703393197595
21
271.07291114513851
31
0
0
LINE
5
227
100
AcDbEntity
8
0
100
AcDbLine
10
388.74703393197603
20
271.07291114513856
30
0
11
163.74703393197595
21
271.07291114513851
31
0
0
CIRCLE
5
228
100
AcDbEntity
8
0
100
AcDbCircle
10
166.74703393197598
20
274.07291114513862
30
0
40
1.2000000000000002
210
0
220
0
230
1
0
CIRCLE
5
229
100
AcDbEntity
8
0
100
AcDbCircle
10
166.74703393197598
20
274.07291114513862
30
0
40
1.2000000000000002
210
0
220
0
230
1
0
LWPOLYLINE
5
230
100
AcDbEntity
8
0
100
AcDbPolyline
90
6
70
1
43
0.0
10
397.15598164997687
20
269.18206719803845
10
397.15598164997687
20
234.18206719803845
10
787.15598164997687
20
234.18206719803845
10
787.15598164997687
20
312.18206719803845
10
658.03264681995131
20
312.18206719803845
10
633.03264681995165
20
269.18206719803857
0
CIRCLE
5
231
100
AcDbEntity
8
0
100
AcDbCircle
10
634.75864592193659
20
266.18206719803851
30
0
40
1.2
210
0
220
0
230
1
0
CIRCLE
5
232
100
AcDbEntity
8
0
100
AcDbCircle
10
634.75864592193614
20
237.18206719803845
30
0
40
1.2
210
0
220
0
230
1
0
CIRCLE
5
233
100
AcDbEntity
8
0
100
AcDbCircle
10
400.15598164997687
20
266.18206719803845
30
0
40
1.2
210
0
220
0
230
1
0
CIRCLE
5
234
100
AcDbEntity
8
0
100
AcDbCircle
10
400.15598164997687
20
237.18206719803842
30
0
40
1.2
210
0
220
0
230
1
0
CIRCLE
5
235
100
AcDbEntity
8
0
100
AcDbCircle
10
634.75864592193659
20
266.18206719803851
30
0
40
1.2
210
0
220
0
230
1
0
CIRCLE
5
236
100
AcDbEntity
8
0
100
AcDbCircle
10
659.75864592193602
20
309.1820671980384
30
0
40
1.2
210
0
220
0
230
1
0
CIRCLE
5
237
100
AcDbEntity
8
0
100
AcDbCircle
10
784.15598164997687
20
309.1820671980384
30
0
40
1.2
210
0
220
0
230
1
0
CIRCLE
5
238
100
AcDbEntity
8
0
100
AcDbCircle
10
634.75864592193614
20
237.18206719803845
30
0
40
1.2
210
0
220
0
230
1
0
LINE
5
239
100
AcDbEntity
8
0
100
AcDbLine
10
397.15598164997687
20
269.18206719803845
30
0
11
397.15598164997687
21
234.18206719803845
31
0
0
CIRCLE
5
240
100
AcDbEntity
8
0
100
AcDbCircle
10
400.15598164997687
20
237.18206719803842
30
0
40
1.2
210
0
220
0
230
1
0
CIRCLE
5
241
100
AcDbEntity
8
0
100
AcDbCircle
10
400.15598164997687
20
266.18206719803845
30
0
40
1.2
210
0
220
0
230
1
0
CIRCLE
5
242
100
AcDbEntity
8
0
100
AcDbCircle
10
784.15598164997687
20
237.18206719803845
30
0
40
1.2
210
0
220
0
230
1
0
CIRCLE
5
243
100
AcDbEntity
8
0
100
AcDbCircle
10
784.15598164997687
20
237.18206719803845
30
0
40
1.2
210
0
220
0
230
1
0
CIRCLE
5
244
100
AcDbEntity
8
0
100
AcDbCircle
10
784.15598164997687
20
309.1820671980384
30
0
40
1.2
210
0
220
0
230
1
0
CIRCLE
5
245
100
AcDbEntity
8
0
100
AcDbCircle
10
659.75864592193602
20
309.1820671980384
30
0
40
1.2
210
0
220
0
230
1
0
LINE
5
246
100
AcDbEntity
8
0
100
AcDbLine
10
787.15598164997687
20
234.18206719803845
30
0
11
787.15598164997687
21
312.18206719803845
31
0
0
LINE
5
247
100
AcDbEntity
8
0
100
AcDbLine
10
658.03264681995131
20
312.18206719803845
30
0
11
787.15598164997687
21
312.18206719803845
31
0
0
LINE
5
248
100
AcDbEntity
8
0
100
AcDbLine
10
397.15598164997687
20
234.18206719803845
30
0
11
787.15598164997687
21
234.18206719803845
31
0
0
LINE
5
249
100
AcDbEntity
8
0
100
AcDbLine
10
658.03264681995131
20
312.18206719803845
30
0
11
633.03264681995165
21
269.18206719803857
31
0
0
LINE
5
250
100
AcDbEntity
8
0
100
AcDbLine
10
633.03264681995165
20
269.18206719803857
30
0
11
397.15598164997687
21
269.18206719803845
31
0
0
LWPOLYLINE
5
251
100
AcDbEntity
8
0
100
AcDbPolyline
90
4
70
1
43
0.0
10
559.37518022197742
20
297.48222009513319
10
559.37518022197742
20
286.98222009513319
10
539.37518022197742
20
286.98222009513319
10
539.37518022197742
20
297.48222009513319
0
LWPOLYLINE
5
252
100
AcDbEntity
8
0
100
AcDbPolyline
90
4
70
1
43
0.0
10
624.37518022197742
20
309.73222009513319
10
399.37518022197742
20
309.73222009513319
10
399.37518022197742
20
274.73222009513319
10
624.37518022197742
20
274.73222009513319
0
LINE
5
253
100
AcDbEntity
8
0
100
AcDbLine
10
539.37518022197742
20
297.48222009513319
30
0
11
539.37518022197742
21
286.98222009513319
31
0
0
CIRCLE
5
254
100
AcDbEntity
8
0
100
AcDbCircle
10
574.37518022197742
20
292.23222009513324
30
0
40
2.9999999999999982
210
0
220
0
230
1
0
CIRCLE
5
255
100
AcDbEntity
8
0
100
AcDbCircle
10
621.37518022197742
20
306.73222009513319
30
0
40
1.2
210
0
220
0
230
1
0
CIRCLE
5
256
100
AcDbEntity
8
0
100
AcDbCircle
10
621.37518022197742
20
277.73222009513319
30
0
40
1.2
210
0
220
0
230
1
0
LINE
5
257
100
AcDbEntity
8
0
100
AcDbLine
10
559.37518022197742
20
286.98222009513319
30
0
11
539.37518022197742
21
286.98222009513319
31
0
0
CIRCLE
5
258
100
AcDbEntity
8
0
100
AcDbCircle
10
402.37518022197742
20
306.73222009513319
30
0
40
1.2
210
0
220
0
230
1
0
CIRCLE
5
259
100
AcDbEntity
8
0
100
AcDbCircle
10
402.37518022197742
20
277.73222009513319
30
0
40
1.2
210
0
220
0
230
1
0
CIRCLE
5
260
100
AcDbEntity
8
0
100
AcDbCircle
10
589.37518022197742
20
292.23222009513319
30
0
40
2.9999999999999982
210
0
220
0
230
1
0
LINE
5
261
100
AcDbEntity
8
0
100
AcDbLine
10
624.37518022197742
20
274.73222009513319
30
0
11
624.37518022197742
21
309.73222009513319
31
0
0
LINE
5
262
100
AcDbEntity
8
0
100
AcDbLine
10
559.37518022197742
20
297.48222009513319
30
0
11
559.37518022197742
21
286.98222009513319
31
0
0
CIRCLE
5
263
100
AcDbEntity
8
0
100
AcDbCircle
10
402.37518022197742
20
277.73222009513319
30
0
40
1.2
210
0
220
0
230
1
0
LINE
5
264
100
AcDbEntity
8
0
100
AcDbLine
10
399.37518022197742
20
309.73222009513319
30
0
11
399.37518022197742
21
274.73222009513319
31
0
0
LINE
5
265
100
AcDbEntity
8
0
100
AcDbLine
10
559.37518022197742
20
297.48222009513319
30
0
11
539.37518022197742
21
297.48222009513319
31
0
0
CIRCLE
5
266
100
AcDbEntity
8
0
100
AcDbCircle
10
589.37518022197742
20
292.23222009513319
30
0
40
2.9999999999999982
210
0
220
0
230
1
0
CIRCLE
5
267
100
AcDbEntity
8
0
100
AcDbCircle
10
402.37518022197742
20
306.73222009513319
30
0
40
1.2
210
0
220
0
230
1
0
LINE
5
268
100
AcDbEntity
8
0
100
AcDbLine
10
624.37518022197742
20
274.73222009513319
30
0
11
399.37518022197742
21
274.73222009513319
31
0
0
CIRCLE
5
269
100
AcDbEntity
8
0
100
AcDbCircle
10
621.37518022197742
20
306.73222009513319
30
0
40
1.2
210
0
220
0
230
1
0
CIRCLE
5
270
100
AcDbEntity
8
0
100
AcDbCircle
10
574.37518022197742
20
292.23222009513324
30
0
40
2.9999999999999982
210
0
220
0
230
1
0
LINE
5
271
100
AcDbEntity
8
0
100
AcDbLine
10
624.37518022197742
20
309.73222009513319
30
0
11
399.37518022197742
21
309.73222009513319
31
0
0
CIRCLE
5
272
100
AcDbEntity
8
0
100
AcDbCircle
10
621.37518022197742
20
277.73222009513319
30
0
40
1.2
210
0
220
0
230
1
0
CIRCLE
5
273
100
AcDbEntity
8
0
100
AcDbCircle
10
765.37896622687356
20
227.37570432947115
30
0
40
1.1249999999999982
210
0
220
0
230
1
0
CIRCLE
5
274
100
AcDbEntity
8
0
100
AcDbCircle
10
765.37896622687356
20
8.3757043294711231
30
0
40
1.1249999999999982
210
0
220
0
230
1
0
CIRCLE
5
275
100
AcDbEntity
8
0
100
AcDbCircle
10
837.37896622687344
20
8.3757043294711231
30
0
40
1.1249999999999982
210
0
220
0
230
1
0
CIRCLE
5
276
100
AcDbEntity
8
0
100
AcDbCircle
10
837.37896622687344
20
227.37570432947115
30
0
40
1.1249999999999982
210
0
220
0
230
1
0
LWPOLYLINE
5
277
100
AcDbEntity
8
0
100
AcDbPolyline
90
4
70
1
43
0.0
10
762.30396622687351
20
5.3007043294711309
10
762.30396622687351
20
230.45070432947114
10
840.45396622687349
20
230.45070432947114
10
840.45396622687349
20
5.3007043294711309
0
ENDSEC
0
SECTION
2
OBJECTS
0
DICTIONARY
5
C
100
AcDbDictionary
3
ACAD_GROUP
350
D
3
ACAD_MLINESTYLE
350
17
0
DICTIONARY
5
D
100
AcDbDictionary
0
DICTIONARY
5
1A
330
C
100
AcDbDictionary
0
DICTIONARY
5
17
100
AcDbDictionary
0
ENDSEC
0
EOF
